Tag Archives: home phillips phillips

Learn HOME by Phillips Phillips Taught correctly by Lance Allen

Hey there guys and gals. Here’s my way to play Home by Phillips Phillips.


Intro
  C                             F2 
|--------------|--------------|--------------|-------------|
|----1---------|----1---------|----1---------|----1--------|
|---------0----|---------0----|---------0----|---------0---|
|----2------2--|----2------2--|----3------3--|----3------3-|  x2
|-3-----3------|-3-----3------|-3-----3------|-3-----3-----|
|--------------|--------------|--------------|-------------|
    m
  p p  p i p etc 

Verse
  C                             F2 
|--------------|--------------|--------------|-------------|
|----1---------|----1---------|----1---------|----1--------|
|---------0----|---------0----|---------0----|---------0---|
|----2------2--|----2------2--|----3------3--|----3------3-|
|-3-----3------|-3-----3------|-3-----3------|-3-----3-----|
|--------------|--------------|--------------|-------------|

  C                             F2
|--------------|--------------|--------------|-------------|
|----1---------|----1---------|----1---------|----1--------|
|---------0----|---------0----|---------0----|---------0---|
|----2------2--|----2------2--|----3------3--|----3------3-|
|-3-----3------|-3-----3------|-3-----3------|-3-----3-----|
|--------------|--------------|--------------|-------------|

  C                             F2
|--------------|--------------|--------------|-------------|
|----1---------|----1---------|----1---------|----1--------|
|---------0----|---------0----|---------0----|---------0---|
|----2------2--|----2------2--|----3------3--|----3------3-|
|-3-----3------|-3-----3------|-3-----3------|-3-----3-----|
|--------------|--------------|--------------|-------------|

  C                             F2
|--------------|--------------|--------------|-------------|
|----1---------|----1---------|----1---------|----1--------|
|---------0----|---------0----|---------0----|---------0---|
|----2------2--|----2------2--|----3------3--|----3------3-|
|-3-----3------|-3-----3------|-3-----3------|-3-----3-----|
|--------------|--------------|--------------|-------------|

  Am                            F2
|--------------|--------------|--------------|--------------|
|----1---------|----1---------|----1---------|----1---------|
|---------2----|---------2----|---------0----|---------0----|
|----2------2--|----2------2--|----3------3--|----3------3--|
|-0-----0------|-0-----0------|-3-----3------|-3-----3------|
|--------------|--------------|--------------|--------------|

  C                             F2
|--------------|--------------|--------------|-------------|
|----1---------|----1---------|----1---------|----1--------|
|---------0----|---------0----|---------0----|---------0---|
|----2------2--|----2------2--|----3------3--|----3------3-|
|-3-----3------|-3-----3------|-3-----3------|-3-----3-----|
|--------------|--------------|--------------|-------------|

  C    C/B    Am   G          Am                   
|------------------------|--------------|--------------|--------------|
|------------------------|----1---------|----1---------|----1---------|
|-----0---0----0------0--|---------2----|---------2----|---------2----|
|---2---0----2------0----|----2------2--|----2------2--|----2------2--|
|-3----2----0-----0------|-0-----0------|-0-----0------|-0-----0------|
|----------------3-------|--------------|--------------|--------------|

  F     C/E   G  
|-----------------------------|
|----1-----1--------1-----1---|
|--2-----0--------0-----0-----|
|-3-----2-------0-----0-------|
|-----------------------------|
|-----------------------------|

  C                             
|--------------|--------------|--------------|--------------|
|----1---------|----1---------|----1---------|----1---------|
|---------0----|---------0----|---------0----|---------0----|
|----2------2--|----2------2--|----2------2--|----2------2--|
|-3-----3------|-3-----3------|-3-----3------|-3-----3------|
|--------------|--------------|--------------|--------------|

C            F2            C     F2
Settle down, it'll all be clear
C                        F2                        C     F2
Don't pay no mind to the demons they fill you with fear
    Am                        F2
The trouble it might drag you down
           C                       G
If you get lost, you can always be found
     C /  C/B /  Am / G /    Am 
Just know you're not alone
                   F /  C/E / G /  /     Cx2
Cause I'm going to make this place your home

Interlude -  
F2  C  Am  G  F2  C  Gx2
F2  C  Am  G  F2  C  Gx2
F2  C  Am  G  F2  C  Gx2

C            F2            C     F2
Settle down, it'll all be clear
C                        F2                        C     F2
Don't pay no mind to the demons they fill you with fear
    Am                        F2
The trouble it might drag you down
           C                       G
If you get lost, you can always be found
     C /  C/B /  Am / G /    Am
Just know you're not alone
                   F /  C/E / G /  /     Cx2
Cause I'm going to make this place your home

Interlude -  
F2  C  Am  G  F2  C  Gx2
F2  C  Am  G  F2  C  Gx2